Wasting My Hate

"Wasting My Hate"

The number of chords may be wrong
Tabbed by Evan Pena
Quiet Intro


|----------------------------------------------------------|
|----------------------------------------------------------|
|----------------------------------------------------------|
|----------------------------------------------------------|
|-----------5-5h7--7--7p5----5-5------5--------------------|
|-0-0-5-7-----------------7------5h7-----3h5-5p0-3h5-7-0---|


Play that once than the below riff a until the fast part of the song. 


|---------------------------------------------------------|
|---------------------------------------------------------|
|---------------------------------------------------------|
|-----------------------------------------------1/2-------|
|-----------5-5h7-7-7p5----5-5------5------------^--------|
|-0-0-5-7---------------7------5h7-----3h5-5p0-5-3-0------|

Fast Bridge Riff A 
|---------------------------------------------------------|
|---------------------------------------------------------|
|---7-9----7-9----7-9----7-9------------------------------|
|---7-9----7-9----7-9----7-9------------------------------|
|-0-5-7--0-5-7--0-5-7--0-5-7------------------------------|
|---------------------------------------------------------|





Fast Bridge Riff B 
|---------------------------------------------------------|
|---------------------------------------------------------|
|---------------------------------------------------------|
|------9-9s8-7--------------------------------------------|
|------7-7s6-5-------9-9s8-7------7-7s5--5s7-7-7--5s7-7-7-|
|-0-0-----------0-0--7-7s6-5--0-0-5-5s3--3s5-5-5--3s5-5-5-|
* * * * * *




Verse 
|---------------------------------------------------------------------|
|---------------------play-------------------------------------play---|
|-4-4-4-4-5-5-5-5--x2-fast----4-4-4-4-5-5-5-5-2-2-2-2-3-3-3-3--fast---|
|-2-2-2-2-2-2-2-2-----bridge--2-2-2-2-2-2-2-2-0-0-0-0-0-0-0-0--bridge-|
|---------------------riff A-----------------------------------riff A-|
|---------------------------------------------------------------------|


Chorus
|----------------------------------------------------------|
|----------------------------------------------------------|
|----------------------------------------------------------|
|----------------------------------------------------------|
|-----------5-5h7--7--7p5----5-5------5--------------------|
|-0-0-5-7-----------------7------5h7-----3h5-5p0-3h5-7-0---|

Mail any corrections or extras to me


 lunamar@icanect.net