Trapped Under Ice

Tabbed By Andrew Bowie (bowie@yoyo.cc.monash.edu.au)
Tuning E
                                                                                
Beginning Riff...
|--------------------|--------------------------|
|--------------------|--------------------------|
|--------------------|--------------------------|
|--------0--2--------|--------0-----2--0--3--3--|
|--------0--2--------|--------0-----2--0--3--3--|
|--0--0--------------|--0--0--------------------|

Riff under first solo and verse...
                      x 3 times
|---------------------|------------------|
|---------------------|------------------|
|---------------------|------------------|
|---------------------|------5--4--2--4--|
|-4-------------------|------3--2--0--2--|
|-0h2--2--2--2--2--2--|------------------|

Before "Scream bit" (Pre-Bridge?)
|---------------------------------------------------------------------------|
|---------------------------------------------------------------------------|
|---------7---7---------------------------------------------9----7----------|
|---------5---5---------------------3--2--------------------9----7----------|
|------------------------3--2-------------3--2--------------7----5----------|
|0-0-0-0---------0--0----------5--4----------------0-0-0-0-----0----6666666-|


"Scream from my soul, mistify.." bit
|-----------------------------------------------------------|
|-----------------------------------------------------------|
|--9--9--9-----------7--7--7--------5--5--4-----------------|
|--9--9--9-----------7--7--7--------5--5--4--------------2--|
|--7--7--7-----------5--5--5--------3--3--2--------------2--|
|--------------------------------------------------3--2--0--|