The Four Horsemen

The Four Horsemen
by: Hetfield, Ulrich and Mustaine
as performed on Kill 'Em All
tab by Phil Boyle; ibzrg470@apk.net


D--5---7-5
A--3-5-5-3
E----3----
intro

D-----------------------------------------5h7
A--7p5-7p5-7p5-7p5---5-7p5-7p5-7p5----5h7----
E------------------7----------------7--------
pm...........................................
galloping

                             1st   2nd   3rd
D--------9-------9-------9-|-7-7-|-5-7-|-12-9-5---7-3 repeat.
A--------7-------7-------7-|-5-5-|-3-5-|-10-7-3-5-5-3
E--0-0-0---0-0-0---0-0-0---|-----|-----|--------3----
pm......   .....   .....
main

D--9--9-7--7-5--5-4-*-9--9-7--7-5--4-5-4-3
A--7--7-5--5-3--3-2-*-7--7-5--5-3--2-3-2-3
E-------------------*---------------------
pm                                 .......
The horsemen are drawing nearer.
*=slide pick

D----------------------------------9-9-----------10-10
A----------------------------------7-7-----------8--8-
E--0-0-0-0-0--0-0-0-0-0--0-0-0-0-0-----0-0-0-0-0------
pm................................     .........

D--------------------------------------------
A--7-5----5--------------------7-5----5------
E------7----7-5--7-5-3--5-3-0------7----7-5-7

D--5-6-7----------3-2-0-2-------5-6-7
A--3-4-5------0-3---------------3-4-5
E---------0-0-------------0-0-0------
pm        ...             .....
Time...  (soon replaced with open E and the C5 C#5 D5 (3-4-5))

G--------------------------4---------2----
D------9---------7---------------------2--
A--7-7---7---5-5---5---3-3---3---2-2-----2
E----------7---------5---------3----------
Not often played live (although I have heard it)