"METAL MILITIA"

Metal Militia
by Hetfield, Ulrich, and Mustaine
as performed on Kill 'Em All
tab by Phil Boyle; phil@encycmet.com


1)
D--2h3--3-2--
A--0h1--1-0-5
E-----------3


2)
D-----------------------------------------------------------------------
A------------------------5/7-----------------------8\7-----5/7-----8-7-5
E--0-0-0-0-0-0-0-0-0-0-0-3/5-0-0-0-0-0-0-0-0-0-0-0-6\5-0-0-3/5-0-0-6-5-3
  pm....................................................................
intro (yeah I'm missing some 0's but if you've heard the song, you'll know)


3)
G-------------------       -3----
D----7---5---2---1-0 three -1-3-5
A--0---0---0---0---- times ---1-3
E-------------------       ------
  pm.............................


4a)
G---------------------------
D--2--5--4-5-4---2--5--4-5-4
A--0--3--2-3-2---0--3--2-3-2
E---------------------------
"Oh through the mist and the madness"

4b)
D------------------------5/7-----------------------8\7-----5/7-----8-7-5
A--0-0-0-0-0-0-0-0-0-0-0-3/5-0-0-0-0-0-0-0-0-0-0-0-6\5-0-0-3/5-0-0-6-5-3
E-----------------------------------------------------------------------


5a)
G--3----       -5----       -7----       -8-----
D--1-3-5 four  -3-5-7 four  -5-7-9 twice -6-8-10
A----1-3 times ---3-5 times ---5-7       ---6-8-
E-------       ------       ------       -------
  pm............................................

5b)
D----------------------------------2
A--7-6-5-4-5-4-3-2-3-2-------------2
E----------------------5-4-5-4-3-2-0
  pm..............................
post solo