Dyers Eve

Dyers Eve

-------------------------



This is how i think it goes sounds right it's abit confussing.



    PM.............|

E-|---------------------------------------------------------------------------|

B-|---------------------------------------------------------------------------|

G-|---------------------------------------------------------------------------|

D-|------------------2---3-----2---5-----2---3------2---2--3-----2---3-----2--|

A-|-2-3-2-3-2-3-2-3--2---3-----2---5-----2---3------2---2--3-----2---3-----2--|

E-|------------------0---1-----0---3-----0---1------0---0--1-----0---1-----0--|



                        PM........|

E-|----------------------------------|

B-|----------------------------------|

G-|----------------------------------|

D-|--5-----2----3----2---------------|

A-|--5-----2----3----2---------------|

E-|--3-----0----1----0--0--1--0--1---|



             PM..|   PM...|   PM...|       PM...|    PM....|     PM...........|

E-|---------------------------------------------------------------------------|

B-|---------------------------------------------------------------------------|

G-|---------------------------------------------------------------------------|

D-|------2---------3--------2--------5---2---------3----------2---------------|

A-|------2---------3--------2--------5---2---------3----------2---------------|

E-|------0---0--0--1--0--0--0--0--0--3---0---0--0--1---0--0---0----0---1--0--1|





E-|--------|------------------------------------------------------------------|

B-|--------|------------------------------------------------------------------|

G-|--------|------------------------------------------------------------------|

D-|-2---(2)|4--------------3\4-4-4-------------------5\4-4-4------------------|

A-|-2---(2)|2--2-3-2-3-2-3-5\2-0-2---2-3-2-3-2-3-2-3-3\2-0-2---2-3-2-3-2-3-2-3|

E-|-0---(0)|------------------------------------------------------------------|





E-|---------------------------------------------------------------------------|

B-|---------------------------------------------------------------------------|

G-|---------------------------------------------------------------------------|

D-|---5\4--4---4-----------------------------5----4-----------4---------------|

A-|---3\2--0---2---2-3-2-3-2-3-2-3-3---2----------------------2--2-3-2-3-2-3--|

E-|---------------------------------------------------------------------------|





E-|---------------------------------------------------------------------------|

B-|---------------------------------------------------------------------------|

G-|---------------------------------------------------------------------------|

D-|-5\4---4----4--------------------3\2-----4----2------------------3\2----4--|

A-|-3\2---0----2----2-3-2-3-2-3-2-3-5\4-----0----4-----2-3-2-3-2-3--5\4----0--|

E-|---------------------------------------------------------------------------|





E-|---------------------------------|

B-|---------------------------------|

G-|---------------------------------|

D-|--4-------------------------5--4-|

A-|--2----2-3-2-3-2-3-2-3-3-2-------|

E-|---------------------------------|





E-|---------------------------------------------------------------------------|

B-|---------------------------------------------------------------------------|

G-|---------------------------------------------------------------------------|

D-|----------------------------------------------4----------------------------|

A-|-2-----3-3-2---3-3-2-------5-5-2------5-5-2---2--2-3-2-3-2-3-0--2---0----2-|

E-|-0-----5-5-0---5-5-0-------3-3-0------3-3-0--------------------------------|





E-|---------------------------------------------------------------------------|

B-|---------------------------------------------------------------------------|

G-|---------------------------------------7---------5-------------------------|

D-|--5----5--5--4--4--------2---------2---7---------5--------4----------------|

A-|--3----3--3--2--2--------2---------2---5---------3--------2--2-3-2-3-2-3-0-|

E-|------------------3p2p0--0--3p2p0--0------3p2p0-----3p2p0------------------|





E-|---------------------------------------------------------------------------|

B-|---------------------------------------------------------------------------|

G-|----------------------------------------9--9---7----5----------------------|

D-|-----------------5---5--5--4--4---------9--9---7----5---4------------------|

A-|---2----0----2---3---3--3--2--2---------7--7---5----3---2-2-3-2-3-2-3-0-2-0|

E-|---------------------------------3p2p0--0--0-------------------------------|





E-|---------------------------------------------------------------------------|

B-|---------------------------------------------------------------------------|

G-|---------------------------------------------------------------------------|

D-|-----5---------------------------------------------------------------------|

A-|-2---3---3-3-3-3-3p2p0-2p0-------------------------------------------------|

E-|---------------------------3-----------------------------------------------|



                verses

E-|---------------------------------------------------------------------------|

B-|---------------------------------------------------------------------------|

G-|--------------------------------------------------------------------------5|

D-|---4-----------------------5--------7---------------------2---------4--4--5|

A-|---4-----------------------5--------7---------------------2---------4--4--3|

E-|---2-----------------------3--------5---------------------0---------2--2---|

    Dear  Mother,Dear Father         What is  this  hell you    have put me

                                                                      through

E-|---------------------------------------------------------------------------|

B-|---------------------------------------------------------------------------|

G-|-------------------------------------------------------------------------5-|

D-|-4--------------------------5-------2--------------------7---------2--2--5-|

A-|-4--------------------------5-------2--------------------7---------2--2--3-|

E-|-2--------------------------3-------0--------------------5---------0--0----|

    Believer,  de ciever               Day in,Day   out,  live  my  life  for you



E-|---------------------------------------------------------------------------|

B-|---------------------------------------------------------------------------|

G-|----------------------------------7----------------------------------------|

D-|-4--------------------------------7------------7-----------------------5---|

A-|-4--------------------------------5------------7-----------------------5---|

E-|-2---------------------------------------------5-----------------------3---|

    pushed  onto   me whats wrong    or  right hidden   from  this thing



E-|--------------------------------------|

B-|--------------------------------------|

G-|----------------------5---4--5-5------|

D-|----------------------5---4--5-5------|

A-|----------------------3---2--3-3------|

E-|--------------------------------------|

  that  they    call  life



E-|---------------------------------------------------------------------------|

B-|---------------------------------------------------------------------------|

G-|---------------------------------------------------------------------------|

D-|-4-------------5\4-4-4-------------------5\4---4--4--------------------5\4-|

A-|-2-2-3-2-3-2-3-3\2-0-2---2-3-2-3-2-3-2-3-3\2---0--2----2-3-2-3-2-3-2-3-3\2-|

E-|---------------------------------------------------------------------------|





E-|---------------------------------------------------------------------------|

B-|---------------------------------------------------------------------------|

G-|---------------------------------------------------------------------------|

D-|-4--4------------------------------5----4--------------------5\4--4---4----|

A-|-0--2----2-3-2-3-2-3-2-3--3----2-------------2-3-2-3-2-3-2-3-3\2--0---2----|

E-|---------------------------------------------------------------------------|





E-|---------------------------------------------------------------------------|

B-|---------------------------------------------------------------------------|

G-|---------------------------------------------------------------------------|

D-|-----------------5\4-------4-----4----------------5\4-------4--4-----------|

A-|-2-3-2-3-2-3-2-3-3\2-------0-----2----2-3-2-3-2-3-3\2-------0--2----2-3-2-3|

E-|---------------------------------------------------------------------------|





E-|---------------------------------------------------------------------------|

B-|---------------------------------------------------------------------------|

G-|---------------------------------------------------------------------------|

D-|----------------5-----4--------4---------------------------5--------------7|

A-|-2-3-2-3-3-2-------------------4---------------------------5--------------7|

E-|-------------------------------2---------------------------3--------------5|

                               Dear mother, Dear father                  every



E-|---------------------------------------------------------------------------|

B-|---------------------------------------------------------------------------|

G-|------------------------4---4----5-----------------------------------------|

D-|-------------2----------4---4----5------4----------------5-------------2---|

A-|-------------2----------2---2----3------4----------------5-------------2---|

E-|-------------0--------------------------2----------------3-------------0---|

    thought i'd think you'd dissaprove    curator,dictator             always



E-|-----------------------------|

B-|-----------------------------|

G-|-----------------------------|

D-|--------7-----4-4----5-------|

A-|--------7-----4-4----5-------|

E-|--------5-----2-2----3-------|

    censoring mt every move       (all the five power chords,E5,A5.etc)

The Verses Follow timing pattern above the rest of the verse are:

 F#                  D

CHILDREN ARE SEEN BUT NOT HEARD

A                    G

TEAR OUT EVERY THING INSPIRED



(THEN THE RIFFS BEFORE VERSUS)

E,E,E,E,E,E,E,E,E,E,    C

BARRED REALITY          LIVING BLINDLY



(THEN VERSE RIFFS)



(THEN SECOND VERSE RIFFS)



THEN

                      (MUTE ALL OPEN E'S.)

E-|----------------------------------------------------------------------------|

B-|----------------------------------------------------------------------------|

G-|--------------------5\4---4---4------------------------5\4---4---4----------|X6

D-|--------------------3\2---0---2------------------------3\2---0---2----------|

A-|----------------------------------------------------------------------------|

E-|--0---0-0-0----0-0-----------------0----0-0-0-----0-0-----------------------|



E-|---------------|

B-|---------------|

G-|---------------|

D-|----3-------3--|

A-|----3-------3--|

E-|----1-------1--|



THAT IS PLAYED WITH THE VERSES AT THE END.