Damage Case

Damage Case

written by Motorhead

as performed Metallica at Lemmy's 50th B-day party

tab by Vladimir Lapotkin and Phil Boyle; ibzrg470@apk.net





tune all guitars down 1/2 step

Gb----7---7---7---9---7---7---7---9

Db----5---5---5---7---5---5---5---7

Ab---------------------------------

Eb--0---0---0---0---0---0---0---0--

   pm   .   .   .   .   .   .   .

intro



Gb------------------------------7-7

Db------------------------------5-5

Ab--7p5-7p5-7p5-7p5-7p5-7p5-7p5----

Eb--0-0-0-0-0-0-0-0-0-0-0-0-0-0----

"Hey Babe don't act so scared..."

main verse



Gb-------------------------------------

Db----4-----7----4-----7----4-----7---2

Ab--2-2--5--5--2-2--5--5--2-2--5--5---2

Eb-------3----------3----------3------0

   pm          .          .

"And I can tell by your face..."



Gb----------------------

Db--4----------------2-4

Ab--2--5---4-2-4-0-4-0-2

Eb-----3---2-0-2-0-2----

          pm........

"Move over for a damage case!"



(key change after solo #1)

Gb-------------------------------------

Db--2-2-----------------------------2-2

Ab--0-0-4---4---4---4---4---4---4---0-0

Eb------2p0-2p0-2p0-2p0-2p0-2p0-2p0----

"Hey babe, don't turn away"



Gb----------4----------4----------4--6

Db----6--2--2----6--2--2----6--2--2--6

Ab--4-4--0-----4-4--0-----4-4--0-----4

Eb------------------------------------

   pm          .          .

"And I can tell by your face"



Gb--------------------------------

Db--6-6-6-6-4-4-4-4--4-2-4-2-4-5-6

Ab--4-4-4-4-2-2-2-2--2-0-2-0-2-3-4

Eb--------------------------------

"Move over for a damage case"